Wednesday, July 24, 2019 | Cloudy skies with moderate to occasionally heavy rains which may trigger flashfloods & landslides will be experienced over Ilocos region and the provinces of Batanes, Benguet, Zambales, Bataan & the islands of Babuyan.| We are our own enemy | Monsoon toll tops 650 as rains unleash flood fury in South Asia | Fairly Modest Growth Expected in Asia-Med Trade | Celebrities console Bea Alonzo | Tim Duncan rejoins San Antonio Spurs as Popovich assistant coach | 1 USD = 51.87 PhP as of closing July 22, 2019|
SITE SEARCH
USAPANG MARINO
Musikahan
The Musikahan page lists the chords and lyrics of your favorite English and Filipino songs. Enjoy your time away by singing these songs with the crew!

This Town
Niall Horan

[Verse 1]

G
Waking up to kiss you and nobody’s there
Em
The smell of your perfume still stuck in the air
Cmaj7   C
It’s hard
G
Yesterday I thought I saw your shadow running round
     Em
It’s funny how things never change in this old town
   Cmaj7 C       D
So far from the stars


[Pre-Chorus]

Am7                      D
  And I want to tell you everything
                  G              D/F#        Em
The words I never got to say the first time around
Am7              D
  And I remember everything
                      G                   D/F#     Em
From when we were the children playing in this fairground
                          C
Wish I was there with you now


[Chorus]

       Em
If the whole world was watching I’d still dance with you
      Cmaj7
Drive highways and byways to be there with you
G
Over and over the only truth
Em   D           G       C
Everything comes back to you
Em  D G
Mmm-mm-mm


[Verse 2]

  G
I saw that you moved on with someone new
       Em
In the pub that we met he’s got his arms around you
     Cmaj7   C
It’s so hard
   D
So hard


[Pre-Chorus]

Am7                      D
  And I want to tell you everything
                  G              D/F#        Em
The words I never got to say the first time around
Am7              D
  And I remember everything
                      G                   D/F#     Em
From when we were the children playing in this fairground
                          C
Wish I was there with you now


[Chorus]

       Em
If the whole world was watching I’d still dance with you
      Cmaj7
Drive highways and byways to be there with you
G
Over and over the only truth
Em   D           G       C
Everything comes back to you
    G
You still make me nervous when you walk in the room
     Em
Them butterflies they come alive when I’m next to you
Cmaj7
Over and over the only truth
Em   D           G       C
Everything comes back to you
Em  D G
Mmm-mm-mm


[Bridge]

Em                     D/F#
  And I know that it’s wrong
                  G
That I can’t move on
                            C
But there’s something about you


[Chorus]

       Em
If the whole world was watching I’d still dance with you
      Cmaj7
Drive highways and byways to be there with you
G
Over and over the only truth
Em    D           G       C
Everything comes back to you
    G
You still make me nervous when you walk in the room
     Em
Them butterflies they come alive when I’m next to you
Cmaj7
Over and over the only truth
Em   D           G       C
Everything comes back to you
Em  D G
Mmm-mm-mm
Em   D           G       C
Everything comes back to you
Em  D G
Mmm-mm-mm

Slow Hands
Niall Horan

[Verse 1]
C                             Am        G*     
  We should take this back to my place
C                               Am       G*
  That's what she said right to my face
F                       G
  'Cause I want you bad, yeah I want you baby

C                             Am       G*  
  I've been thinking 'bout it all day
C                         Am        G*  
  And I hope you feel the same way (yeah)
F                       G (mute)
  'Cause I want you bad,   yeah I want you baby


[Chorus 1]
F
Slow, slow hands
     G                       Am
Like sweat dripping down our dirty laundry
F
No, no chance
         G               E
That I'm leaving here without you on me
F
I, I know
       G                       Am
Yeah I already know that there ain't no stopping
F                      G (mute)
  Your plans and those    slow hands (woo)

C  Am
      Slow hands
C  Am


[Verse 2]
C                   Am       G*
  I just wanna take my time
C                        Am         G*
  We could do this baby, all night (yeah)
F                       G (mute)
  'Cause I want you bad,   yeah I want you baby


[Chorus 2]
F
Slow, slow hands
     G                       Am
Like sweat dripping down our dirty laundry
F
No, no chance
         G               E
That I'm leaving here without you on me
F
I, I know
       G                       Am
Yeah I already know that there ain't no stopping
F                      G (mute)
  Your plans and those    slow hands (woo)


[Bridge]
F
  Fingertips putting on a show
G
  Got me now and I can't say no
E
  Wanna be with you all alone
Am
Take me home, take me home
F
  Fingertips putting on a show
E7
  Can't you tell that I want you baby


[Chorus 3]
F
Yeah, slow hands
     G                       Am
Like sweat dripping down our dirty laundry
F
No, no chance
         G               E
That I'm leaving here without you on me
F
I, I know
       G                       Am
Yeah I already know that there ain't no stopping

F
  Slow hands
     G                       Am
Like sweat dripping down our dirty laundry
F
No, no chance
         G               E
That I'm leaving here without you on me
F
I, I know
       G                       Am
Yeah I already know that there ain't no stopping
F                      G (mute)
  Your plans and those    slow hands (woo)

C  Am
      Your slow hands
C  Am
      Oooh, slow hands

Flicker
Niall Horan

[Verse 1]
  C
When you feel your love's been taken
  Em
When you know there's something missing
  Am                                Am/G
In the dark, we're barely hangin' on
  C
Then you rest your head upon my chest
  Em
And you feel like there ain't nothing left
  Am                                Fm7
I'm afraid that what we had is gone


[Chorus]
                   F
Then I think of the start
                Cm7
And it echoes a spark
          Am       G      C      Fm7
And I remember the magic electricity
                 F
Then I look in my heart
                 Cm7
There's a light in the dark
          Am       G             C          Fm7
Still a flicker of hope that you first gave to me
              Dm
That I wanna keep


Please don't leave
e|---------------------------------------------------------------------------|
B|1--- 1------3------3------5-------5-----5----------------------------------|
G|-- 0------------0-------------0-------------0--------2------2------2-------|
D|------------------------------------------------0--------3----3------------|
A|0----- 0----2--------2----3----------3-------------------------------------|
E|-----------------------------------------------------1-----------1-----1---|

e|---------------------------------------------------------------------------|
B|---------------------------------------------------------------------------|
G|-----2--------2------2--------2------2-------------------------------------|
D|--3-----3---------3------3--------3-----3----------------------------------|
A|--------------------------------------------0------------------------------|
E|-----1-----1---------1------1----------------------------------------------|
Please don't leave
e|---------------------------------------------------------------------------|
B|1--- 1------3------3------5-------5-----5----------------------------------|
G|-- 0------------0-------------0-------------0--------2------2------2-------|
D|------------------------------------------------0--------3----3------------|
A|0----- 0----2--------2----3----------3-------------------------------------|
E|-----------------------------------------------------1-----------1-----1---|

e|---------------------------------------------------------------------------|
B|---------------------------------------------------------------------------|
G|-----2--------2------2--------2------2-------------------------------------|
D|--3-----3---------3------3--------3-----3----------------------------------|
A|--------------------------------------------0------------------------------|
E|-----1-----1---------1------1----------------------------------------------|

[Verse 2]
          C
When you lay there and you're sleeping
          Em
Hear the patterns of your breathing
       Am                  Am/G             Fm7
And I tell you things you've never heard before
        C
Asking questions to the ceiling
       Em
Never knowing what you're thinking
   Am           Am/G             Fm7
I'm afraid that what we had is gone


[Chorus]
                   F
Then I think of the start
                Cm7
And it echoes a spark
          Am       G      C      Fm7
And I remember the magic electricity
                 F
Then I look in my heart
                 Cm7
There's a light in the dark
          Am       G             C          Fm7
Still a flicker of hope that you first gave to me
              Dm
That I wanna keep


Please don't leave
e|---------------------------------------------------------------------------|
B|1--- 1------3------3------5-------5-----5----------------------------------|
G|-- 0------------0-------------0-------------0--------2------2------2-------|
D|------------------------------------------------0--------3----3------------|
A|0----- 0----2--------2----3----------3-------------------------------------|
E|-----------------------------------------------------1-----------1-----1---|

e|---------------------------------------------------------------------------|
B|---------------------------------------------------------------------------|
G|-----2--------2------2--------2------2-------------------------------------|
D|--3-----3---------3------3--------3-----3----------------------------------|
A|--------------------------------------------0------------------------------|
E|-----1-----1---------1------1----------------------------------------------|
Please don't leave
e|---------------------------------------------------------------------------|
B|1--- 1------3------3------5-------5-----5----------------------------------|
G|-- 0------------0-------------0-------------0--------2------2------2-------|
D|------------------------------------------------0--------3----3------------|
A|0----- 0----2--------2----3----------3-------------------------------------|
E|-----------------------------------------------------1-----------1-----1---|

e|---------------------------------------------------------------------------|
B|---------------------------------------------------------------------------|
G|-----2--------2------2--------2------2-------------------------------------|
D|--3-----3---------3------3--------3-----3----------------------------------|
A|--------------------------------------------0------------------------------|
E|-----1-----1---------1------1----------------------------------------------|


[Bridge]
   Am7  G/B   C      F
And I want this to pass
   Am7  G/B   C      F
And I hope this won't last
         Dm
Last too long


[Chorus]
                   F
Then I think of the start
                Cm7
And it echoes a spark
          Am       G      C      Fm7
And I remember the magic electricity
                 F
Then I look in my heart
                 Cm7
There's a light in the dark
          Am       G             C          Fm7
Still a flicker of hope that you first gave to me
              Dm
That I wanna keep


Please don't leave
e|---------------------------------------------------------------------------|
B|1--- 1------3------3------5-------5-----5----------------------------------|
G|-- 0------------0-------------0-------------0--------2------2------2-------|
D|------------------------------------------------0--------3----3------------|
A|0----- 0----2--------2----3----------3-------------------------------------|
E|-----------------------------------------------------1-----------1-----1---|

e|---------------------------------------------------------------------------|
B|---------------------------------------------------------------------------|
G|-----2--------2------2--------2------2-------------------------------------|
D|--3-----3---------3------3--------3-----3----------------------------------|
A|--------------------------------------------0------------------------------|
E|-----1-----1---------1------1----------------------------------------------|
Please don't leave
e|---------------------------------------------------------------------------|
B|1--- 1------3------3------5-------5-----5----------------------------------|
G|-- 0------------0-------------0-------------0--------2------2------2-------|
D|------------------------------------------------0--------3----3------------|
A|0----- 0----2--------2----3----------3-------------------------------------|
E|-----------------------------------------------------1-----------1-----1---|

e|---------------------------------------------------------------------------|
B|---------------------------------------------------------------------------|
G|-----2--------2------2--------2------2-------------------------------------|
D|--3-----3---------3------3--------3-----3----------------------------------|
A|--------------------------------------------0------------------------------|
E|-----1-----1---------1------1----------------------------------------------|

Paper Houses
Niall Horan

[Intro]
N.C
One, Two, Three, Four
C#m  B  E
C#m  B  E
C#m  B  E
A

[Verse 1]
C#m B    E
In  this house
   C#m B   E
Of bro-ken hearts
   C#m  B   E
We made our love
               A
From stacks of cards and
C#m  B  E
Yes, we tried
   C#m  B  E
To hold on tight, 'cause
   C#m B   E
We knew our love
            A
Was hard to find

[Chorus]
        C#m   B
And our paper houses
          E    B
Reach the stars
       C#m         B
Till we break and scatter
        E   B
Worlds apart
        C#m      B       
Yeah, I paid the price and
        A    B
own the scars
          A     B
Why do we climb
            C#m    B    E
And fall so far
C#m  B  E

[Verse 2]
    C#m  B   E
We  held our cards
   C#m   B    E
We built them high
    C#m B  E
But way to close
       A
To the light
     C#m  B    E
So I turn your head
    C#m B  E
And let us go
  C#m     B  E
I learned to breathe
      A
On my own

[Chorus]
        C#m   B
And our paper houses
          E    B
Reach the stars
       C#m         B
Till we break and scatter
        E   B
Worlds apart
        C#m      B       
Yeah, I paid the price and
        A    B
own the scars
          A     B
Why do we climb
            C#m    B    E
And fall so far
C#m  B  E

[Bridge]
C#m  B  E  A
          C#m   B
Yeah, our paper houses
          E
Reach the stars
       C#m       B
Til we break and scatter
        E
Worlds apart
C#m            B
 I don't wanna lose your touch
E              B
 I don't wanna hurt this much
C#m             B       C#m  E
 I can feel it slipping away

[Chorus 3]
       C#m      B       
Yeah, I paid the price and
        A    B
own the scars
          A     B
Why do we climb
            C#m    B    E
And fall so far
C#m  B  E

[Outro]
          A     B
Why do we climb
           E
To fall so far

Seeing Blind
Niall Horan

[Intro]
A

[Verse 1]
A
I have seen

I've seen it all
   D
In paper dreams
                       F#m
I've watched it unfold on the screen
               E
but I never understood
A
I have heard

I've heard you're speaking
D
Million words
                   F#m
Now you're talking to me first
                  E
I never thought you would

[Chorus 1]
D
Oh my, my my
         A
You just took me by surprise
      F#m
And I can't believe my eyes
     E
Oh I must seeing blind
D
Oh, no, I
           A
You're too good to be all mine
        F#m
Now I'm looking in your eyes
     E
Oh I must be seeing blind

[Verse 2]
A
I was young
                    D
My heart was always on the run
              F#m
But you make loving fun
             E
never knew it could be
A
I see you
                 D
From a different point of view
               F#m
Feels too good to be true
             E
Find my missing Piece

[Chorus 2]
D
Oh my, my my
         A
You just took me by surprise
      F#m
And I can't believe my eyes
     E
Oh I must seeing blind
D
Oh, oh, why
           A
You're too good to be all mine
        F#m
Now I'm looking in your eyes
     E
Oh I must be seeing blind

[Bridge]
D A     F#m E
    Oh, no

D
Oh my, my my
       A
When I look into your eyes
       F#m
It's a sight I can't describe
     E
Oh I must seeing blind

[Chorus 3]
D
Oh my, my my
         A
You just took me by surprise
      F#m
And I can't believe my eyes
     E
Oh I must seeing blind
D
Oh, no, I
           A
You're too good to be all mine
        F#m
Now I'm looking in your eyes
     E                D A F#m
Oh I must be seeing blind
      E
Oh, I must be seeing blind

Musikahan would like to hear from you
For comments, suggestion and personal concern click the icon below.
Personal emails and stories from our readers would be highly appreciated.